ISO-10303-21;
HEADER;
FILE_DESCRIPTION(('STEP AP214'),'1');
FILE_NAME('B0505LS-1WR2_MNS','2022-05-15T23:53:52',(''),(''),'','','');
FILE_SCHEMA(('AUTOMOTIVE_DESIGN'));
ENDSEC;
DATA;
#1=SHAPE_DEFINITION_REPRESENTATION(#2,#3);
#2=PRODUCT_DEFINITION_SHAPE('',$,#4);
#3=SHAPE_REPRESENTATION('',(#80,#135,#190,#245,#300,#355,#410,#466,#19),#11);
#4=PRODUCT_DEFINITION('design','example product_definition',#6,#5);
#5=PRODUCT_DEFINITION_CONTEXT('3D Mechanical Parts',#10,'design');
#6=PRODUCT_DEFINITION_FORMATION('1.0','first version',#8);
#7=APPLICATION_PROTOCOL_DEFINITION('international standard','automotive_design',2003,#10);
#8=PRODUCT('product','part','',(#9));
#9=PRODUCT_CONTEXT('3D Mechanical Parts',#10,'mechanical');
#10=APPLICATION_CONTEXT('Core Data for Automotive Mechanical Design Process');
#11=(GEOMETRIC_REPRESENTATION_CONTEXT(3) GLOBAL_UNCERTAINTY_ASSIGNED_CONTEXT((#12)) GLOBAL_UNIT_ASSIGNED_CONTEXT((#13,#14,#18)) REPRESENTATION_CONTEXT('ID1','3D'));
#12=UNCERTAINTY_MEASURE_WITH_UNIT(LENGTH_MEASURE(1.E-005),#13,'DISTANCE_ACCURACY_VALUE','Maximum model space distance between geometric entities at asserted connectivities');
#13=(LENGTH_UNIT() NAMED_UNIT(*) SI_UNIT(.MILLI.,.METRE.));
#14=(CONVERSION_BASED_UNIT('degree',#16) NAMED_UNIT(#15) PLANE_ANGLE_UNIT());
#15=DIMENSIONAL_EXPONENTS(0.,0.,0.,0.,0.,0.,0.);
#16=MEASURE_WITH_UNIT(PLANE_ANGLE_MEASURE(0.01745329252),#17);
#17=(NAMED_UNIT(*) PLANE_ANGLE_UNIT() SI_UNIT($,.RADIAN.));
#18=(NAMED_UNIT(*) SI_UNIT($,.STERADIAN.) SOLID_ANGLE_UNIT());
#19=AXIS2_PLACEMENT_3D('',#20,#21,#22);
#20=CARTESIAN_POINT('',(0.0,0.0,0.0));
#21=DIRECTION('',(0.0,0.0,1.0));
#22=DIRECTION('',(1.0,0.0,0.0));
#25=MECHANICAL_DESIGN_GEOMETRIC_PRESENTATION_REPRESENTATION($,(#132,#133,#134,#187,#188,#189,#242,#243,#244,#297,#298,#299,#352,#353,#354,#407,#408,#409,#462,#463,#464,#468,#517,#566,#615,#664,#713),#11);
#26=PRODUCT_CATEGORY_RELATIONSHIP('','',#27,#28);
#27=PRODUCT_CATEGORY('part','');
#28=PRODUCT_RELATED_PRODUCT_CATEGORY('','',(#8));
#34=PRESENTATION_STYLE_ASSIGNMENT((#35,#40));
#35=SURFACE_STYLE_USAGE(.BOTH.,#36);
#36=SURFACE_SIDE_STYLE('',(#37));
#37=SURFACE_STYLE_FILL_AREA(#38);
#38=FILL_AREA_STYLE('',(#39));
#39=FILL_AREA_STYLE_COLOUR('',#41);
#40=CURVE_STYLE('',#42,POSITIVE_LENGTH_MEASURE(0.1),#41);
#41=COLOUR_RGB('Aluminum',0.725,0.725,0.725);
#42=DRAUGHTING_PRE_DEFINED_CURVE_FONT('continuous');
#43=PRESENTATION_STYLE_ASSIGNMENT((#44,#49));
#44=SURFACE_STYLE_USAGE(.BOTH.,#45);
#45=SURFACE_SIDE_STYLE('',(#46));
#46=SURFACE_STYLE_FILL_AREA(#47);
#47=FILL_AREA_STYLE('',(#48));
#48=FILL_AREA_STYLE_COLOUR('',#50);
#49=CURVE_STYLE('',#51,POSITIVE_LENGTH_MEASURE(0.1),#50);
#50=COLOUR_RGB('Black',0.196,0.196,0.196);
#51=DRAUGHTING_PRE_DEFINED_CURVE_FONT('continuous');
#52=PRESENTATION_STYLE_ASSIGNMENT((#53,#58));
#53=SURFACE_STYLE_USAGE(.BOTH.,#54);
#54=SURFACE_SIDE_STYLE('',(#55));
#55=SURFACE_STYLE_FILL_AREA(#56);
#56=FILL_AREA_STYLE('',(#57));
#57=FILL_AREA_STYLE_COLOUR('',#59);
#58=CURVE_STYLE('',#60,POSITIVE_LENGTH_MEASURE(0.1),#59);
#59=COLOUR_RGB('Pin1',0.588,0.588,0.588);
#60=DRAUGHTING_PRE_DEFINED_CURVE_FONT('continuous');
#61=PRESENTATION_STYLE_ASSIGNMENT((#62,#67));
#62=SURFACE_STYLE_USAGE(.BOTH.,#63);
#63=SURFACE_SIDE_STYLE('',(#64));
#64=SURFACE_STYLE_FILL_AREA(#65);
#65=FILL_AREA_STYLE('',(#66));
#66=FILL_AREA_STYLE_COLOUR('',#68);
#67=CURVE_STYLE('',#69,POSITIVE_LENGTH_MEASURE(0.1),#68);
#68=COLOUR_RGB('HeatTab',0.588,0.588,0.588);
#69=DRAUGHTING_PRE_DEFINED_CURVE_FONT('continuous');
#70=PRESENTATION_STYLE_ASSIGNMENT((#71,#76));
#71=SURFACE_STYLE_USAGE(.BOTH.,#72);
#72=SURFACE_SIDE_STYLE('',(#73));
#73=SURFACE_STYLE_FILL_AREA(#74);
#74=FILL_AREA_STYLE('',(#75));
#75=FILL_AREA_STYLE_COLOUR('',#77);
#76=CURVE_STYLE('',#78,POSITIVE_LENGTH_MEASURE(0.1),#77);
#77=COLOUR_RGB('MountTab',0.706,0.706,0.706);
#78=DRAUGHTING_PRE_DEFINED_CURVE_FONT('continuous');
#80=MANIFOLD_SOLID_BREP($,#81);
#81=CLOSED_SHELL('',(#82,#83,#84));
#82=ADVANCED_FACE($,(#88,#87),#105,.T.);
#83=ADVANCED_FACE($,(#89),#85,.F.);
#84=ADVANCED_FACE($,(#90),#86,.T.);
#85=PLANE($,#110);
#86=PLANE($,#111);
#87=FACE_BOUND($,#92,.T.);
#88=FACE_OUTER_BOUND($,#91,.T.);
#89=FACE_OUTER_BOUND($,#93,.T.);
#90=FACE_OUTER_BOUND($,#94,.T.);
#91=EDGE_LOOP($,(#101));
#92=EDGE_LOOP($,(#102));
#93=EDGE_LOOP($,(#103));
#94=EDGE_LOOP($,(#104));
#95=CIRCLE($,#108,0.4191);
#96=CIRCLE($,#109,0.4191);
#97=VERTEX_POINT('',#126);
#98=VERTEX_POINT('',#128);
#99=EDGE_CURVE($,#97,#97,#95,.T.);
#100=EDGE_CURVE($,#98,#98,#96,.T.);
#101=ORIENTED_EDGE($,*,*,#99,.F.);
#102=ORIENTED_EDGE($,*,*,#100,.F.);
#103=ORIENTED_EDGE($,*,*,#100,.T.);
#104=ORIENTED_EDGE($,*,*,#99,.T.);
#105=CYLINDRICAL_SURFACE($,#107,0.4191);
#106=AXIS2_PLACEMENT_3D('placement',#124,#112,#113);
#107=AXIS2_PLACEMENT_3D($,#125,#114,#115);
#108=AXIS2_PLACEMENT_3D($,#127,#116,#117);
#109=AXIS2_PLACEMENT_3D($,#129,#118,#119);
#110=AXIS2_PLACEMENT_3D($,#130,#120,#121);
#111=AXIS2_PLACEMENT_3D($,#131,#122,#123);
#112=DIRECTION('axis',(0.,1.,0.));
#113=DIRECTION('refdir',(1.,0.,0.));
#114=DIRECTION('',(0.,0.,1.));
#115=DIRECTION('',(1.,0.,0.));
#116=DIRECTION('',(0.,0.,1.));
#117=DIRECTION('',(1.,0.,0.));
#118=DIRECTION('',(0.,0.,-1.));
#119=DIRECTION('',(1.,0.,0.));
#120=DIRECTION('',(0.,0.,1.));
#121=DIRECTION('',(0.,1.,0.));
#122=DIRECTION('',(0.,0.,1.));
#123=DIRECTION('',(0.,1.,0.));
#124=CARTESIAN_POINT('',(0.,0.,0.));
#125=CARTESIAN_POINT('',(0.0,1.35,-5.893));
#126=CARTESIAN_POINT('',(-0.419,1.35,0.0));
#127=CARTESIAN_POINT('',(0.0,1.35,0.0));
#128=CARTESIAN_POINT('',(-0.419,1.35,-5.893));
#129=CARTESIAN_POINT('',(0.0,1.35,-5.893));
#130=CARTESIAN_POINT('',(0.0,1.35,-5.893));
#131=CARTESIAN_POINT('',(0.0,1.35,0.0));
#132=STYLED_ITEM('color',(#34),#82);
#133=STYLED_ITEM('color',(#34),#83);
#134=STYLED_ITEM('color',(#34),#84);
#135=MANIFOLD_SOLID_BREP($,#136);
#136=CLOSED_SHELL('',(#137,#138,#139));
#137=ADVANCED_FACE($,(#143,#142),#160,.T.);
#138=ADVANCED_FACE($,(#144),#140,.F.);
#139=ADVANCED_FACE($,(#145),#141,.T.);
#140=PLANE($,#165);
#141=PLANE($,#166);
#142=FACE_BOUND($,#147,.T.);
#143=FACE_OUTER_BOUND($,#146,.T.);
#144=FACE_OUTER_BOUND($,#148,.T.);
#145=FACE_OUTER_BOUND($,#149,.T.);
#146=EDGE_LOOP($,(#156));
#147=EDGE_LOOP($,(#157));
#148=EDGE_LOOP($,(#158));
#149=EDGE_LOOP($,(#159));
#150=CIRCLE($,#163,0.4191);
#151=CIRCLE($,#164,0.4191);
#152=VERTEX_POINT('',#181);
#153=VERTEX_POINT('',#183);
#154=EDGE_CURVE($,#152,#152,#150,.T.);
#155=EDGE_CURVE($,#153,#153,#151,.T.);
#156=ORIENTED_EDGE($,*,*,#154,.F.);
#157=ORIENTED_EDGE($,*,*,#155,.F.);
#158=ORIENTED_EDGE($,*,*,#155,.T.);
#159=ORIENTED_EDGE($,*,*,#154,.T.);
#160=CYLINDRICAL_SURFACE($,#162,0.4191);
#161=AXIS2_PLACEMENT_3D('placement',#179,#167,#168);
#162=AXIS2_PLACEMENT_3D($,#180,#169,#170);
#163=AXIS2_PLACEMENT_3D($,#182,#171,#172);
#164=AXIS2_PLACEMENT_3D($,#184,#173,#174);
#165=AXIS2_PLACEMENT_3D($,#185,#175,#176);
#166=AXIS2_PLACEMENT_3D($,#186,#177,#178);
#167=DIRECTION('axis',(0.,1.,0.));
#168=DIRECTION('refdir',(1.,0.,0.));
#169=DIRECTION('',(0.,0.,1.));
#170=DIRECTION('',(1.,0.,0.));
#171=DIRECTION('',(0.,0.,1.));
#172=DIRECTION('',(1.,0.,0.));
#173=DIRECTION('',(0.,0.,-1.));
#174=DIRECTION('',(1.,0.,0.));
#175=DIRECTION('',(0.,0.,1.));
#176=DIRECTION('',(0.,1.,0.));
#177=DIRECTION('',(0.,0.,1.));
#178=DIRECTION('',(0.,1.,0.));
#179=CARTESIAN_POINT('',(0.,0.,0.));
#180=CARTESIAN_POINT('',(2.54,1.35,-5.893));
#181=CARTESIAN_POINT('',(2.121,1.35,0.0));
#182=CARTESIAN_POINT('',(2.54,1.35,0.0));
#183=CARTESIAN_POINT('',(2.121,1.35,-5.893));
#184=CARTESIAN_POINT('',(2.54,1.35,-5.893));
#185=CARTESIAN_POINT('',(2.54,1.35,-5.893));
#186=CARTESIAN_POINT('',(2.54,1.35,0.0));
#187=STYLED_ITEM('color',(#34),#137);
#188=STYLED_ITEM('color',(#34),#138);
#189=STYLED_ITEM('color',(#34),#139);
#190=MANIFOLD_SOLID_BREP($,#191);
#191=CLOSED_SHELL('',(#192,#193,#194));
#192=ADVANCED_FACE($,(#198,#197),#215,.T.);
#193=ADVANCED_FACE($,(#199),#195,.F.);
#194=ADVANCED_FACE($,(#200),#196,.T.);
#195=PLANE($,#220);
#196=PLANE($,#221);
#197=FACE_BOUND($,#202,.T.);
#198=FACE_OUTER_BOUND($,#201,.T.);
#199=FACE_OUTER_BOUND($,#203,.T.);
#200=FACE_OUTER_BOUND($,#204,.T.);
#201=EDGE_LOOP($,(#211));
#202=EDGE_LOOP($,(#212));
#203=EDGE_LOOP($,(#213));
#204=EDGE_LOOP($,(#214));
#205=CIRCLE($,#218,0.4191);
#206=CIRCLE($,#219,0.4191);
#207=VERTEX_POINT('',#236);
#208=VERTEX_POINT('',#238);
#209=EDGE_CURVE($,#207,#207,#205,.T.);
#210=EDGE_CURVE($,#208,#208,#206,.T.);
#211=ORIENTED_EDGE($,*,*,#209,.F.);
#212=ORIENTED_EDGE($,*,*,#210,.F.);
#213=ORIENTED_EDGE($,*,*,#210,.T.);
#214=ORIENTED_EDGE($,*,*,#209,.T.);
#215=CYLINDRICAL_SURFACE($,#217,0.4191);
#216=AXIS2_PLACEMENT_3D('placement',#234,#222,#223);
#217=AXIS2_PLACEMENT_3D($,#235,#224,#225);
#218=AXIS2_PLACEMENT_3D($,#237,#226,#227);
#219=AXIS2_PLACEMENT_3D($,#239,#228,#229);
#220=AXIS2_PLACEMENT_3D($,#240,#230,#231);
#221=AXIS2_PLACEMENT_3D($,#241,#232,#233);
#222=DIRECTION('axis',(0.,1.,0.));
#223=DIRECTION('refdir',(1.,0.,0.));
#224=DIRECTION('',(0.,0.,1.));
#225=DIRECTION('',(1.,0.,0.));
#226=DIRECTION('',(0.,0.,1.));
#227=DIRECTION('',(1.,0.,0.));
#228=DIRECTION('',(0.,0.,-1.));
#229=DIRECTION('',(1.,0.,0.));
#230=DIRECTION('',(0.,0.,1.));
#231=DIRECTION('',(0.,1.,0.));
#232=DIRECTION('',(0.,0.,1.));
#233=DIRECTION('',(0.,1.,0.));
#234=CARTESIAN_POINT('',(0.,0.,0.));
#235=CARTESIAN_POINT('',(5.08,1.35,-5.893));
#236=CARTESIAN_POINT('',(4.661,1.35,0.0));
#237=CARTESIAN_POINT('',(5.08,1.35,0.0));
#238=CARTESIAN_POINT('',(4.661,1.35,-5.893));
#239=CARTESIAN_POINT('',(5.08,1.35,-5.893));
#240=CARTESIAN_POINT('',(5.08,1.35,-5.893));
#241=CARTESIAN_POINT('',(5.08,1.35,0.0));
#242=STYLED_ITEM('color',(#34),#192);
#243=STYLED_ITEM('color',(#34),#193);
#244=STYLED_ITEM('color',(#34),#194);
#245=MANIFOLD_SOLID_BREP($,#246);
#246=CLOSED_SHELL('',(#247,#248,#249));
#247=ADVANCED_FACE($,(#253,#252),#270,.T.);
#248=ADVANCED_FACE($,(#254),#250,.F.);
#249=ADVANCED_FACE($,(#255),#251,.T.);
#250=PLANE($,#275);
#251=PLANE($,#276);
#252=FACE_BOUND($,#257,.T.);
#253=FACE_OUTER_BOUND($,#256,.T.);
#254=FACE_OUTER_BOUND($,#258,.T.);
#255=FACE_OUTER_BOUND($,#259,.T.);
#256=EDGE_LOOP($,(#266));
#257=EDGE_LOOP($,(#267));
#258=EDGE_LOOP($,(#268));
#259=EDGE_LOOP($,(#269));
#260=CIRCLE($,#273,0.4191);
#261=CIRCLE($,#274,0.4191);
#262=VERTEX_POINT('',#291);
#263=VERTEX_POINT('',#293);
#264=EDGE_CURVE($,#262,#262,#260,.T.);
#265=EDGE_CURVE($,#263,#263,#261,.T.);
#266=ORIENTED_EDGE($,*,*,#264,.F.);
#267=ORIENTED_EDGE($,*,*,#265,.F.);
#268=ORIENTED_EDGE($,*,*,#265,.T.);
#269=ORIENTED_EDGE($,*,*,#264,.T.);
#270=CYLINDRICAL_SURFACE($,#272,0.4191);
#271=AXIS2_PLACEMENT_3D('placement',#289,#277,#278);
#272=AXIS2_PLACEMENT_3D($,#290,#279,#280);
#273=AXIS2_PLACEMENT_3D($,#292,#281,#282);
#274=AXIS2_PLACEMENT_3D($,#294,#283,#284);
#275=AXIS2_PLACEMENT_3D($,#295,#285,#286);
#276=AXIS2_PLACEMENT_3D($,#296,#287,#288);
#277=DIRECTION('axis',(0.,1.,0.));
#278=DIRECTION('refdir',(1.,0.,0.));
#279=DIRECTION('',(0.,0.,1.));
#280=DIRECTION('',(1.,0.,0.));
#281=DIRECTION('',(0.,0.,1.));
#282=DIRECTION('',(1.,0.,0.));
#283=DIRECTION('',(0.,0.,-1.));
#284=DIRECTION('',(1.,0.,0.));
#285=DIRECTION('',(0.,0.,1.));
#286=DIRECTION('',(0.,1.,0.));
#287=DIRECTION('',(0.,0.,1.));
#288=DIRECTION('',(0.,1.,0.));
#289=CARTESIAN_POINT('',(0.,0.,0.));
#290=CARTESIAN_POINT('',(7.62,1.35,-5.893));
#291=CARTESIAN_POINT('',(7.201,1.35,0.0));
#292=CARTESIAN_POINT('',(7.62,1.35,0.0));
#293=CARTESIAN_POINT('',(7.201,1.35,-5.893));
#294=CARTESIAN_POINT('',(7.62,1.35,-5.893));
#295=CARTESIAN_POINT('',(7.62,1.35,-5.893));
#296=CARTESIAN_POINT('',(7.62,1.35,0.0));
#297=STYLED_ITEM('color',(#34),#247);
#298=STYLED_ITEM('color',(#34),#248);
#299=STYLED_ITEM('color',(#34),#249);
#300=MANIFOLD_SOLID_BREP($,#301);
#301=CLOSED_SHELL('',(#302,#303,#304));
#302=ADVANCED_FACE($,(#308,#307),#325,.T.);
#303=ADVANCED_FACE($,(#309),#305,.F.);
#304=ADVANCED_FACE($,(#310),#306,.T.);
#305=PLANE($,#330);
#306=PLANE($,#331);
#307=FACE_BOUND($,#312,.T.);
#308=FACE_OUTER_BOUND($,#311,.T.);
#309=FACE_OUTER_BOUND($,#313,.T.);
#310=FACE_OUTER_BOUND($,#314,.T.);
#311=EDGE_LOOP($,(#321));
#312=EDGE_LOOP($,(#322));
#313=EDGE_LOOP($,(#323));
#314=EDGE_LOOP($,(#324));
#315=CIRCLE($,#328,0.4191);
#316=CIRCLE($,#329,0.4191);
#317=VERTEX_POINT('',#346);
#318=VERTEX_POINT('',#348);
#319=EDGE_CURVE($,#317,#317,#315,.T.);
#320=EDGE_CURVE($,#318,#318,#316,.T.);
#321=ORIENTED_EDGE($,*,*,#319,.F.);
#322=ORIENTED_EDGE($,*,*,#320,.F.);
#323=ORIENTED_EDGE($,*,*,#320,.T.);
#324=ORIENTED_EDGE($,*,*,#319,.T.);
#325=CYLINDRICAL_SURFACE($,#327,0.4191);
#326=AXIS2_PLACEMENT_3D('placement',#344,#332,#333);
#327=AXIS2_PLACEMENT_3D($,#345,#334,#335);
#328=AXIS2_PLACEMENT_3D($,#347,#336,#337);
#329=AXIS2_PLACEMENT_3D($,#349,#338,#339);
#330=AXIS2_PLACEMENT_3D($,#350,#340,#341);
#331=AXIS2_PLACEMENT_3D($,#351,#342,#343);
#332=DIRECTION('axis',(0.,1.,0.));
#333=DIRECTION('refdir',(1.,0.,0.));
#334=DIRECTION('',(0.,0.,1.));
#335=DIRECTION('',(1.,0.,0.));
#336=DIRECTION('',(0.,0.,1.));
#337=DIRECTION('',(1.,0.,0.));
#338=DIRECTION('',(0.,0.,-1.));
#339=DIRECTION('',(1.,0.,0.));
#340=DIRECTION('',(0.,0.,1.));
#341=DIRECTION('',(0.,1.,0.));
#342=DIRECTION('',(0.,0.,1.));
#343=DIRECTION('',(0.,1.,0.));
#344=CARTESIAN_POINT('',(0.,0.,0.));
#345=CARTESIAN_POINT('',(10.16,1.35,-5.893));
#346=CARTESIAN_POINT('',(9.741,1.35,0.0));
#347=CARTESIAN_POINT('',(10.16,1.35,0.0));
#348=CARTESIAN_POINT('',(9.741,1.35,-5.893));
#349=CARTESIAN_POINT('',(10.16,1.35,-5.893));
#350=CARTESIAN_POINT('',(10.16,1.35,-5.893));
#351=CARTESIAN_POINT('',(10.16,1.35,0.0));
#352=STYLED_ITEM('color',(#34),#302);
#353=STYLED_ITEM('color',(#34),#303);
#354=STYLED_ITEM('color',(#34),#304);
#355=MANIFOLD_SOLID_BREP($,#356);
#356=CLOSED_SHELL('',(#357,#358,#359));
#357=ADVANCED_FACE($,(#363,#362),#380,.T.);
#358=ADVANCED_FACE($,(#364),#360,.F.);
#359=ADVANCED_FACE($,(#365),#361,.T.);
#360=PLANE($,#385);
#361=PLANE($,#386);
#362=FACE_BOUND($,#367,.T.);
#363=FACE_OUTER_BOUND($,#366,.T.);
#364=FACE_OUTER_BOUND($,#368,.T.);
#365=FACE_OUTER_BOUND($,#369,.T.);
#366=EDGE_LOOP($,(#376));
#367=EDGE_LOOP($,(#377));
#368=EDGE_LOOP($,(#378));
#369=EDGE_LOOP($,(#379));
#370=CIRCLE($,#383,0.4191);
#371=CIRCLE($,#384,0.4191);
#372=VERTEX_POINT('',#401);
#373=VERTEX_POINT('',#403);
#374=EDGE_CURVE($,#372,#372,#370,.T.);
#375=EDGE_CURVE($,#373,#373,#371,.T.);
#376=ORIENTED_EDGE($,*,*,#374,.F.);
#377=ORIENTED_EDGE($,*,*,#375,.F.);
#378=ORIENTED_EDGE($,*,*,#375,.T.);
#379=ORIENTED_EDGE($,*,*,#374,.T.);
#380=CYLINDRICAL_SURFACE($,#382,0.4191);
#381=AXIS2_PLACEMENT_3D('placement',#399,#387,#388);
#382=AXIS2_PLACEMENT_3D($,#400,#389,#390);
#383=AXIS2_PLACEMENT_3D($,#402,#391,#392);
#384=AXIS2_PLACEMENT_3D($,#404,#393,#394);
#385=AXIS2_PLACEMENT_3D($,#405,#395,#396);
#386=AXIS2_PLACEMENT_3D($,#406,#397,#398);
#387=DIRECTION('axis',(0.,1.,0.));
#388=DIRECTION('refdir',(1.,0.,0.));
#389=DIRECTION('',(0.,0.,1.));
#390=DIRECTION('',(1.,0.,0.));
#391=DIRECTION('',(0.,0.,1.));
#392=DIRECTION('',(1.,0.,0.));
#393=DIRECTION('',(0.,0.,-1.));
#394=DIRECTION('',(1.,0.,0.));
#395=DIRECTION('',(0.,0.,1.));
#396=DIRECTION('',(0.,1.,0.));
#397=DIRECTION('',(0.,0.,1.));
#398=DIRECTION('',(0.,1.,0.));
#399=CARTESIAN_POINT('',(0.,0.,0.));
#400=CARTESIAN_POINT('',(12.7,1.35,-5.893));
#401=CARTESIAN_POINT('',(12.281,1.35,0.0));
#402=CARTESIAN_POINT('',(12.7,1.35,0.0));
#403=CARTESIAN_POINT('',(12.281,1.35,-5.893));
#404=CARTESIAN_POINT('',(12.7,1.35,-5.893));
#405=CARTESIAN_POINT('',(12.7,1.35,-5.893));
#406=CARTESIAN_POINT('',(12.7,1.35,0.0));
#407=STYLED_ITEM('color',(#34),#357);
#408=STYLED_ITEM('color',(#34),#358);
#409=STYLED_ITEM('color',(#34),#359);
#410=MANIFOLD_SOLID_BREP($,#411);
#411=CLOSED_SHELL('',(#412,#413,#414));
#412=ADVANCED_FACE($,(#418,#417),#435,.T.);
#413=ADVANCED_FACE($,(#419),#415,.F.);
#414=ADVANCED_FACE($,(#420),#416,.T.);
#415=PLANE($,#440);
#416=PLANE($,#441);
#417=FACE_BOUND($,#422,.T.);
#418=FACE_OUTER_BOUND($,#421,.T.);
#419=FACE_OUTER_BOUND($,#423,.T.);
#420=FACE_OUTER_BOUND($,#424,.T.);
#421=EDGE_LOOP($,(#431));
#422=EDGE_LOOP($,(#432));
#423=EDGE_LOOP($,(#433));
#424=EDGE_LOOP($,(#434));
#425=CIRCLE($,#438,0.4191);
#426=CIRCLE($,#439,0.4191);
#427=VERTEX_POINT('',#456);
#428=VERTEX_POINT('',#458);
#429=EDGE_CURVE($,#427,#427,#425,.T.);
#430=EDGE_CURVE($,#428,#428,#426,.T.);
#431=ORIENTED_EDGE($,*,*,#429,.F.);
#432=ORIENTED_EDGE($,*,*,#430,.F.);
#433=ORIENTED_EDGE($,*,*,#430,.T.);
#434=ORIENTED_EDGE($,*,*,#429,.T.);
#435=CYLINDRICAL_SURFACE($,#437,0.4191);
#436=AXIS2_PLACEMENT_3D('placement',#454,#442,#443);
#437=AXIS2_PLACEMENT_3D($,#455,#444,#445);
#438=AXIS2_PLACEMENT_3D($,#457,#446,#447);
#439=AXIS2_PLACEMENT_3D($,#459,#448,#449);
#440=AXIS2_PLACEMENT_3D($,#460,#450,#451);
#441=AXIS2_PLACEMENT_3D($,#461,#452,#453);
#442=DIRECTION('axis',(0.,1.,0.));
#443=DIRECTION('refdir',(1.,0.,0.));
#444=DIRECTION('',(0.,0.,1.));
#445=DIRECTION('',(1.,0.,0.));
#446=DIRECTION('',(0.,0.,1.));
#447=DIRECTION('',(1.,0.,0.));
#448=DIRECTION('',(0.,0.,-1.));
#449=DIRECTION('',(1.,0.,0.));
#450=DIRECTION('',(0.,0.,1.));
#451=DIRECTION('',(0.,1.,0.));
#452=DIRECTION('',(0.,0.,1.));
#453=DIRECTION('',(0.,1.,0.));
#454=CARTESIAN_POINT('',(0.,0.,0.));
#455=CARTESIAN_POINT('',(15.24,1.35,-5.893));
#456=CARTESIAN_POINT('',(14.821,1.35,0.0));
#457=CARTESIAN_POINT('',(15.24,1.35,0.0));
#458=CARTESIAN_POINT('',(14.821,1.35,-5.893));
#459=CARTESIAN_POINT('',(15.24,1.35,-5.893));
#460=CARTESIAN_POINT('',(15.24,1.35,-5.893));
#461=CARTESIAN_POINT('',(15.24,1.35,0.0));
#462=STYLED_ITEM('color',(#34),#412);
#463=STYLED_ITEM('color',(#34),#413);
#464=STYLED_ITEM('color',(#34),#414);
#466=MANIFOLD_SOLID_BREP($,#467);
#467=CLOSED_SHELL('',(#469,#518,#567,#616,#665,#714));
#468=STYLED_ITEM('',(#43),#469);
#469=ADVANCED_FACE('',(#475),#470,.T.);
#470=PLANE('',#471);
#471=AXIS2_PLACEMENT_3D('',#472,#473,#474);
#472=CARTESIAN_POINT('',(-2.375,-3.124,0.0));
#473=DIRECTION('',(0.0,-1.0,0.0));
#474=DIRECTION('',(0.,0.,1.));
#475=FACE_OUTER_BOUND('',#476,.T.);
#476=EDGE_LOOP('',(#477,#487,#497,#507));
#480=CARTESIAN_POINT('',(17.615,-3.124,0.0));
#479=VERTEX_POINT('',#480);
#482=CARTESIAN_POINT('',(-2.375,-3.124,0.0));
#481=VERTEX_POINT('',#482);
#478=EDGE_CURVE('',#479,#481,#483,.T.);
#483=LINE('',#480,#485);
#485=VECTOR('',#486,19.9898);
#486=DIRECTION('',(-1.0,0.0,0.0));
#477=ORIENTED_EDGE('',*,*,#478,.F.);
#490=CARTESIAN_POINT('',(17.615,-3.124,9.55));
#489=VERTEX_POINT('',#490);
#488=EDGE_CURVE('',#489,#479,#493,.T.);
#493=LINE('',#490,#495);
#495=VECTOR('',#496,9.5504);
#496=DIRECTION('',(0.0,0.0,-1.0));
#487=ORIENTED_EDGE('',*,*,#488,.F.);
#500=CARTESIAN_POINT('',(-2.375,-3.124,9.55));
#499=VERTEX_POINT('',#500);
#498=EDGE_CURVE('',#499,#489,#503,.T.);
#503=LINE('',#500,#505);
#505=VECTOR('',#506,19.9898);
#506=DIRECTION('',(1.0,0.0,0.0));
#497=ORIENTED_EDGE('',*,*,#498,.F.);
#508=EDGE_CURVE('',#481,#499,#513,.T.);
#513=LINE('',#482,#515);
#515=VECTOR('',#516,9.5504);
#516=DIRECTION('',(0.0,0.0,1.0));
#507=ORIENTED_EDGE('',*,*,#508,.F.);
#517=STYLED_ITEM('',(#43),#518);
#518=ADVANCED_FACE('',(#524),#519,.T.);
#519=PLANE('',#520);
#520=AXIS2_PLACEMENT_3D('',#521,#522,#523);
#521=CARTESIAN_POINT('',(17.615,-3.124,0.0));
#522=DIRECTION('',(1.0,0.0,0.0));
#523=DIRECTION('',(0.,0.,1.));
#524=FACE_OUTER_BOUND('',#525,.T.);
#525=EDGE_LOOP('',(#526,#536,#546,#556));
#529=CARTESIAN_POINT('',(17.615,3.124,0.0));
#528=VERTEX_POINT('',#529);
#527=EDGE_CURVE('',#528,#479,#532,.T.);
#532=LINE('',#529,#534);
#534=VECTOR('',#535,6.2484);
#535=DIRECTION('',(0.0,-1.0,0.0));
#526=ORIENTED_EDGE('',*,*,#527,.F.);
#539=CARTESIAN_POINT('',(17.615,3.124,9.55));
#538=VERTEX_POINT('',#539);
#537=EDGE_CURVE('',#538,#528,#542,.T.);
#542=LINE('',#539,#544);
#544=VECTOR('',#545,9.5504);
#545=DIRECTION('',(0.0,0.0,-1.0));
#536=ORIENTED_EDGE('',*,*,#537,.F.);
#547=EDGE_CURVE('',#489,#538,#552,.T.);
#552=LINE('',#490,#554);
#554=VECTOR('',#555,6.2484);
#555=DIRECTION('',(0.0,1.0,0.0));
#546=ORIENTED_EDGE('',*,*,#547,.F.);
#556=ORIENTED_EDGE('',*,*,#488,.T.);
#566=STYLED_ITEM('',(#43),#567);
#567=ADVANCED_FACE('',(#573),#568,.T.);
#568=PLANE('',#569);
#569=AXIS2_PLACEMENT_3D('',#570,#571,#572);
#570=CARTESIAN_POINT('',(17.615,3.124,0.0));
#571=DIRECTION('',(0.0,1.0,0.0));
#572=DIRECTION('',(0.,0.,1.));
#573=FACE_OUTER_BOUND('',#574,.T.);
#574=EDGE_LOOP('',(#575,#585,#595,#605));
#578=CARTESIAN_POINT('',(-2.375,3.124,0.0));
#577=VERTEX_POINT('',#578);
#576=EDGE_CURVE('',#577,#528,#581,.T.);
#581=LINE('',#578,#583);
#583=VECTOR('',#584,19.9898);
#584=DIRECTION('',(1.0,0.0,0.0));
#575=ORIENTED_EDGE('',*,*,#576,.F.);
#588=CARTESIAN_POINT('',(-2.375,3.124,9.55));
#587=VERTEX_POINT('',#588);
#586=EDGE_CURVE('',#587,#577,#591,.T.);
#591=LINE('',#588,#593);
#593=VECTOR('',#594,9.5504);
#594=DIRECTION('',(0.0,0.0,-1.0));
#585=ORIENTED_EDGE('',*,*,#586,.F.);
#596=EDGE_CURVE('',#538,#587,#601,.T.);
#601=LINE('',#539,#603);
#603=VECTOR('',#604,19.9898);
#604=DIRECTION('',(-1.0,0.0,0.0));
#595=ORIENTED_EDGE('',*,*,#596,.F.);
#605=ORIENTED_EDGE('',*,*,#537,.T.);
#615=STYLED_ITEM('',(#43),#616);
#616=ADVANCED_FACE('',(#622),#617,.T.);
#617=PLANE('',#618);
#618=AXIS2_PLACEMENT_3D('',#619,#620,#621);
#619=CARTESIAN_POINT('',(-2.375,3.124,0.0));
#620=DIRECTION('',(-1.0,0.0,0.0));
#621=DIRECTION('',(0.,0.,1.));
#622=FACE_OUTER_BOUND('',#623,.T.);
#623=EDGE_LOOP('',(#624,#634,#644,#654));
#625=EDGE_CURVE('',#481,#577,#630,.T.);
#630=LINE('',#482,#632);
#632=VECTOR('',#633,6.2484);
#633=DIRECTION('',(0.0,1.0,0.0));
#624=ORIENTED_EDGE('',*,*,#625,.F.);
#634=ORIENTED_EDGE('',*,*,#508,.T.);
#645=EDGE_CURVE('',#587,#499,#650,.T.);
#650=LINE('',#588,#652);
#652=VECTOR('',#653,6.2484);
#653=DIRECTION('',(0.0,-1.0,0.0));
#644=ORIENTED_EDGE('',*,*,#645,.F.);
#654=ORIENTED_EDGE('',*,*,#586,.T.);
#664=STYLED_ITEM('',(#43),#665);
#665=ADVANCED_FACE('',(#671),#666,.T.);
#666=PLANE('',#667);
#667=AXIS2_PLACEMENT_3D('',#668,#669,#670);
#668=CARTESIAN_POINT('',(-2.375,3.124,0.0));
#669=DIRECTION('',(0.0,0.0,-1.0));
#670=DIRECTION('',(0.,1.,0.));
#671=FACE_OUTER_BOUND('',#672,.T.);
#672=EDGE_LOOP('',(#673,#683,#693,#703));
#673=ORIENTED_EDGE('',*,*,#576,.T.);
#683=ORIENTED_EDGE('',*,*,#527,.T.);
#693=ORIENTED_EDGE('',*,*,#478,.T.);
#703=ORIENTED_EDGE('',*,*,#625,.T.);
#713=STYLED_ITEM('',(#43),#714);
#714=ADVANCED_FACE('',(#720),#715,.T.);
#715=PLANE('',#716);
#716=AXIS2_PLACEMENT_3D('',#717,#718,#719);
#717=CARTESIAN_POINT('',(-2.375,-3.124,9.55));
#718=DIRECTION('',(0.0,0.0,1.0));
#719=DIRECTION('',(0.,1.,0.));
#720=FACE_OUTER_BOUND('',#721,.T.);
#721=EDGE_LOOP('',(#722,#732,#742,#752));
#722=ORIENTED_EDGE('',*,*,#498,.T.);
#732=ORIENTED_EDGE('',*,*,#547,.T.);
#742=ORIENTED_EDGE('',*,*,#596,.T.);
#752=ORIENTED_EDGE('',*,*,#645,.T.);
ENDSEC;
END-ISO-10303-21;
